ISO-10303-21;
HEADER;
FILE_DESCRIPTION (( 'STEP AP203' ),
    '1' );
FILE_NAME ('QM-CAHWP-10-650-1100-M.STEP',
    '2021-01-05T02:34:25',
    ( '' ),
    ( '' ),
    'SwSTEP 2.0',
    'SolidWorks 2020',
    '' );
FILE_SCHEMA (( 'CONFIG_CONTROL_DESIGN' ));
ENDSEC;

DATA;
#1 = PERSON_AND_ORGANIZATION ( #9, #301 ) ;
#2 = ORIENTED_EDGE ( 'NONE', *, *, #178, .T. ) ;
#3 = PERSON_AND_ORGANIZATION ( #9, #301 ) ;
#4 = ORIENTED_EDGE ( 'NONE', *, *, #280, .F. ) ;
#5 = ORIENTED_EDGE ( 'NONE', *, *, #57, .T. ) ;
#6 = APPLICATION_PROTOCOL_DEFINITION ( 'international standard', 'config_control_design', 1994, #184 ) ;
#7 = ORIENTED_EDGE ( 'NONE', *, *, #289, .T. ) ;
#8 = ADVANCED_FACE ( 'NONE', ( #182 ), #152, .F. ) ;
#9 = PERSON ( 'UNSPECIFIED', 'UNSPECIFIED', 'UNSPECIFIED', ('UNSPECIFIED'), ('UNSPECIFIED'), ('UNSPECIFIED') ) ;
#10 = DIRECTION ( 'NONE',  ( 0.000000000000000000, 0.000000000000000000, 1.000000000000000000 ) ) ;
#11 = SECURITY_CLASSIFICATION ( '', '', #284 ) ;
#12 = CARTESIAN_POINT ( 'NONE',  ( 0.5000000000000004441, 0.000000000000000000, 5.000000000000000000 ) ) ;
#13 = DIRECTION ( 'NONE',  ( -1.000000000000000000, -0.000000000000000000, -0.000000000000000000 ) ) ;
#14 = CARTESIAN_POINT ( 'NONE',  ( 3.000000000000000000, 0.000000000000000000, 0.000000000000000000 ) ) ;
#15 = CARTESIAN_POINT ( 'NONE',  ( -0.5000000000000002220, 0.000000000000000000, 0.000000000000000000 ) ) ;
#16 = DIRECTION ( 'NONE',  ( -1.000000000000000000, 0.000000000000000000, -0.000000000000000000 ) ) ;
#17 = EDGE_CURVE ( 'NONE', #109, #27, #91, .T. ) ;
#18 = DIRECTION ( 'NONE',  ( -1.000000000000000000, -0.000000000000000000, -0.000000000000000000 ) ) ;
#19 =( NAMED_UNIT ( * ) PLANE_ANGLE_UNIT ( ) SI_UNIT ( $, .RADIAN. ) );
#20 = APPROVAL_PERSON_ORGANIZATION ( #3, #189, #204 ) ;
#21 = CARTESIAN_POINT ( 'NONE',  ( -1.614212418857619014, 0.000000000000000000, 5.000000000000000888 ) ) ;
#22 = FACE_OUTER_BOUND ( 'NONE', #111, .T. ) ;
#23 = PERSON_AND_ORGANIZATION_ROLE ( 'creator' ) ;
#24 = DATE_AND_TIME ( #211, #198 ) ;
#25 = CARTESIAN_POINT ( 'NONE',  ( -3.000000000000000000, 0.000000000000000000, 0.000000000000000000 ) ) ;
#26 = APPLICATION_PROTOCOL_DEFINITION ( 'international standard', 'config_control_design', 1994, #122 ) ;
#27 = VERTEX_POINT ( 'NONE', #112 ) ;
#28 = APPROVAL_STATUS ( 'not_yet_approved' ) ;
#29 = EDGE_LOOP ( 'NONE', ( #36, #59, #34, #128 ) ) ;
#30 = AXIS2_PLACEMENT_3D ( 'NONE', #14, #116, #241 ) ;
#31 = LOCAL_TIME ( 10, 34, 25.00000000000000000, #125 ) ;
#32 = PERSON_AND_ORGANIZATION ( #9, #301 ) ;
#33 = CC_DESIGN_PERSON_AND_ORGANIZATION_ASSIGNMENT ( #200, #86, ( #175 ) ) ;
#34 = ORIENTED_EDGE ( 'NONE', *, *, #17, .F. ) ;
#35 = EDGE_CURVE ( 'NONE', #201, #27, #294, .T. ) ;
#36 = ORIENTED_EDGE ( 'NONE', *, *, #121, .T. ) ;
#37 = DIRECTION ( 'NONE',  ( -1.000000000000000000, -0.000000000000000000, -0.000000000000000000 ) ) ;
#38 = AXIS2_PLACEMENT_3D ( 'NONE', #223, #140, #326 ) ;
#39 = CARTESIAN_POINT ( 'NONE',  ( 3.000000000000000000, 12.69999999999999929, 0.000000000000000000 ) ) ;
#40 = DIRECTION ( 'NONE',  ( 0.000000000000000000, 0.000000000000000000, 1.000000000000000000 ) ) ;
#41 = DIRECTION ( 'NONE',  ( -1.000000000000000000, -0.000000000000000000, -0.000000000000000000 ) ) ;
#42 = EDGE_CURVE ( 'NONE', #329, #292, #300, .T. ) ;
#43 = EDGE_CURVE ( 'NONE', #292, #329, #226, .T. ) ;
#44 = DIRECTION ( 'NONE',  ( 1.000000000000000000, 0.000000000000000000, 0.000000000000000000 ) ) ;
#45 =( LENGTH_UNIT ( ) NAMED_UNIT ( * ) SI_UNIT ( .MILLI., .METRE. ) );
#46 = CYLINDRICAL_SURFACE ( 'NONE', #101, 12.69999999999999929 ) ;
#47 = AXIS2_PLACEMENT_3D ( 'NONE', #330, #195, #196 ) ;
#48 = FACE_OUTER_BOUND ( 'NONE', #181, .T. ) ;
#49 = CARTESIAN_POINT ( 'NONE',  ( 0.000000000000000000, 0.000000000000000000, 0.000000000000000000 ) ) ;
#50 = EDGE_CURVE ( 'NONE', #264, #109, #165, .T. ) ;
#51 = ORIENTED_EDGE ( 'NONE', *, *, #289, .F. ) ;
#52 = VECTOR ( 'NONE', #161, 1000.000000000000000 ) ;
#53 = EDGE_CURVE ( 'NONE', #27, #109, #163, .T. ) ;
#54 = APPROVAL_ROLE ( '' ) ;
#55 = APPROVAL_DATE_TIME ( #108, #193 ) ;
#56 = ORIENTED_EDGE ( 'NONE', *, *, #178, .F. ) ;
#57 = EDGE_CURVE ( 'NONE', #225, #315, #180, .T. ) ;
#58 = ORIENTED_EDGE ( 'NONE', *, *, #17, .T. ) ;
#59 = ORIENTED_EDGE ( 'NONE', *, *, #35, .T. ) ;
#60 = DIRECTION ( 'NONE',  ( -1.000000000000000000, -0.000000000000000000, -0.000000000000000000 ) ) ;
#61 = DESIGN_CONTEXT ( 'detailed design', #122, 'design' ) ;
#62 = DIRECTION ( 'NONE',  ( 0.000000000000000000, 0.000000000000000000, 1.000000000000000000 ) ) ;
#63 = AXIS2_PLACEMENT_3D ( 'NONE', #39, #322, #296 ) ;
#64 = DIRECTION ( 'NONE',  ( -1.000000000000000000, -0.000000000000000000, -0.000000000000000000 ) ) ;
#65 = PLANE ( 'NONE',  #63 ) ;
#66 = APPROVAL ( #183, 'UNSPECIFIED' ) ;
#67 = DIRECTION ( 'NONE',  ( 0.000000000000000000, 0.000000000000000000, 1.000000000000000000 ) ) ;
#68 = CIRCLE ( 'NONE', #145, 5.000000000000000000 ) ;
#69 = FACE_BOUND ( 'NONE', #285, .T. ) ;
#70 = DIRECTION ( 'NONE',  ( 1.000000000000000000, 0.000000000000000000, 0.000000000000000000 ) ) ;
#71 = ORIENTED_EDGE ( 'NONE', *, *, #142, .F. ) ;
#72 = PRODUCT_RELATED_PRODUCT_CATEGORY ( 'detail', '', ( #150 ) ) ;
#73 = DIRECTION ( 'NONE',  ( 0.000000000000000000, 0.000000000000000000, 1.000000000000000000 ) ) ;
#74 = DIRECTION ( 'NONE',  ( -1.000000000000000000, -0.000000000000000000, -0.000000000000000000 ) ) ;
#75 = VECTOR ( 'NONE', #18, 1000.000000000000000 ) ;
#76 = DIRECTION ( 'NONE',  ( -1.000000000000000000, -0.000000000000000000, -0.000000000000000000 ) ) ;
#77 = EDGE_CURVE ( 'NONE', #225, #292, #188, .T. ) ;
#78 = ORIENTED_EDGE ( 'NONE', *, *, #229, .T. ) ;
#79 = APPROVAL_DATE_TIME ( #129, #66 ) ;
#80 = ORIENTED_EDGE ( 'NONE', *, *, #77, .T. ) ;
#81 = AXIS2_PLACEMENT_3D ( 'NONE', #87, #179, #283 ) ;
#82 = PERSON_AND_ORGANIZATION_ROLE ( 'design_owner' ) ;
#83 = EDGE_LOOP ( 'NONE', ( #313, #237 ) ) ;
#84 = APPROVAL_DATE_TIME ( #238, #189 ) ;
#85 = ORIENTED_EDGE ( 'NONE', *, *, #142, .T. ) ;
#86 = PERSON_AND_ORGANIZATION_ROLE ( 'design_supplier' ) ;
#87 = CARTESIAN_POINT ( 'NONE',  ( -0.5000000000000002220, 5.000000000000000000, 0.000000000000000000 ) ) ;
#88 = CIRCLE ( 'NONE', #158, 5.000000000000000000 ) ;
#89 = CARTESIAN_POINT ( 'NONE',  ( -1.614212418857619014, 0.000000000000000000, 0.000000000000000000 ) ) ;
#90 = CARTESIAN_POINT ( 'NONE',  ( -1.614212418857619014, 0.000000000000000000, 0.000000000000000000 ) ) ;
#91 = CIRCLE ( 'NONE', #197, 12.69999999999999929 ) ;
#92 = DIRECTION ( 'NONE',  ( 1.000000000000000000, 0.000000000000000000, 0.000000000000000000 ) ) ;
#93 = EDGE_CURVE ( 'NONE', #187, #135, #205, .T. ) ;
#94 = EDGE_CURVE ( 'NONE', #201, #264, #168, .T. ) ;
#95 = CARTESIAN_POINT ( 'NONE',  ( -3.000000000000000000, 0.000000000000000000, 0.000000000000000000 ) ) ;
#96 = CYLINDRICAL_SURFACE ( 'NONE', #131, 5.000000000000000888 ) ;
#97 = VECTOR ( 'NONE', #246, 1000.000000000000000 ) ;
#98 =( NAMED_UNIT ( * ) SI_UNIT ( $, .STERADIAN. ) SOLID_ANGLE_UNIT ( ) );
#99 = CARTESIAN_POINT ( 'NONE',  ( -0.5000000000000002220, 6.123233995736767268E-16, -5.000000000000000888 ) ) ;
#100 = FACE_OUTER_BOUND ( 'NONE', #335, .T. ) ;
#101 = AXIS2_PLACEMENT_3D ( 'NONE', #224, #120, #255 ) ;
#102 = CC_DESIGN_SECURITY_CLASSIFICATION ( #11, ( #175 ) ) ;
#103 = DATE_TIME_ROLE ( 'creation_date' ) ;
#104 = ORIENTED_EDGE ( 'NONE', *, *, #213, .T. ) ;
#105 = PERSON_AND_ORGANIZATION ( #9, #301 ) ;
#106 = ORIENTED_EDGE ( 'NONE', *, *, #50, .T. ) ;
#107 = ORIENTED_EDGE ( 'NONE', *, *, #318, .T. ) ;
#108 = DATE_AND_TIME ( #231, #31 ) ;
#109 = VERTEX_POINT ( 'NONE', #192 ) ;
#110 = MECHANICAL_CONTEXT ( 'NONE', #184, 'mechanical' ) ;
#111 = EDGE_LOOP ( 'NONE', ( #203, #5, #7, #232 ) ) ;
#112 = CARTESIAN_POINT ( 'NONE',  ( -3.000000000000000000, 1.555301434917138433E-15, -12.69999999999999929 ) ) ;
#113 =( GEOMETRIC_REPRESENTATION_CONTEXT ( 3 ) GLOBAL_UNCERTAINTY_ASSIGNED_CONTEXT ( ( #244 ) ) GLOBAL_UNIT_ASSIGNED_CONTEXT ( ( #45, #19, #98 ) ) REPRESENTATION_CONTEXT ( 'NONE', 'WORKASPACE' ) );
#114 = CARTESIAN_POINT ( 'NONE',  ( -1.614212418857619014, 1.555301434917138433E-15, -12.69999999999999929 ) ) ;
#115 = DIRECTION ( 'NONE',  ( -1.000000000000000000, -0.000000000000000000, -0.000000000000000000 ) ) ;
#116 = DIRECTION ( 'NONE',  ( -1.000000000000000000, -0.000000000000000000, -0.000000000000000000 ) ) ;
#117 = CARTESIAN_POINT ( 'NONE',  ( 3.000000000000000000, 0.000000000000000000, 0.000000000000000000 ) ) ;
#118 = CARTESIAN_POINT ( 'NONE',  ( -1.614212418857619014, 0.000000000000000000, 0.000000000000000000 ) ) ;
#119 = CARTESIAN_POINT ( 'NONE',  ( -3.000000000000000000, 0.000000000000000000, 5.000000000000000000 ) ) ;
#120 = DIRECTION ( 'NONE',  ( -1.000000000000000000, -0.000000000000000000, -0.000000000000000000 ) ) ;
#121 = EDGE_CURVE ( 'NONE', #264, #201, #311, .T. ) ;
#122 = APPLICATION_CONTEXT ( 'configuration controlled 3d designs of mechanical parts and assemblies' ) ;
#123 = CALENDAR_DATE ( 2021, 5, 1 ) ;
#124 = AXIS2_PLACEMENT_3D ( 'NONE', #218, #214, #139 ) ;
#125 = COORDINATED_UNIVERSAL_TIME_OFFSET ( 8, 0, .AHEAD. ) ;
#126 = EDGE_LOOP ( 'NONE', ( #185, #85, #104, #156 ) ) ;
#127 = CC_DESIGN_PERSON_AND_ORGANIZATION_ASSIGNMENT ( #32, #82, ( #150 ) ) ;
#128 = ORIENTED_EDGE ( 'NONE', *, *, #50, .F. ) ;
#129 = DATE_AND_TIME ( #233, #216 ) ;
#130 = ORIENTED_EDGE ( 'NONE', *, *, #53, .F. ) ;
#131 = AXIS2_PLACEMENT_3D ( 'NONE', #304, #74, #277 ) ;
#132 = AXIS2_PLACEMENT_3D ( 'NONE', #49, #314, #133 ) ;
#133 = DIRECTION ( 'NONE',  ( 1.000000000000000000, 0.000000000000000000, 0.000000000000000000 ) ) ;
#134 = ORIENTED_EDGE ( 'NONE', *, *, #43, .F. ) ;
#135 = VERTEX_POINT ( 'NONE', #298 ) ;
#136 = CARTESIAN_POINT ( 'NONE',  ( 3.000000000000000000, 6.123233995736768255E-16, -5.000000000000001776 ) ) ;
#137 = LOCAL_TIME ( 10, 34, 25.00000000000000000, #155 ) ;
#138 = LINE ( 'NONE', #267, #323 ) ;
#139 = DIRECTION ( 'NONE',  ( 0.000000000000000000, 0.000000000000000000, 1.000000000000000000 ) ) ;
#140 = DIRECTION ( 'NONE',  ( -1.000000000000000000, -0.000000000000000000, -0.000000000000000000 ) ) ;
#141 = CARTESIAN_POINT ( 'NONE',  ( -0.5000000000000002220, 0.000000000000000000, 0.000000000000000000 ) ) ;
#142 = EDGE_CURVE ( 'NONE', #187, #239, #138, .T. ) ;
#143 = CARTESIAN_POINT ( 'NONE',  ( -0.5000000000000002220, 0.000000000000000000, 5.000000000000000888 ) ) ;
#144 = DIRECTION ( 'NONE',  ( -1.000000000000000000, -0.000000000000000000, -0.000000000000000000 ) ) ;
#145 = AXIS2_PLACEMENT_3D ( 'NONE', #302, #299, #281 ) ;
#146 = FACE_OUTER_BOUND ( 'NONE', #83, .T. ) ;
#147 = ADVANCED_FACE ( 'NONE', ( #272, #219 ), #65, .F. ) ;
#148 = CARTESIAN_POINT ( 'NONE',  ( 0.5000000000000004441, 6.123233995736766282E-16, -5.000000000000000000 ) ) ;
#149 = ADVANCED_FACE ( 'NONE', ( #164 ), #273, .F. ) ;
#150 = PRODUCT ( 'QM-CAHWP-10-650-1100-M', 'QM-CAHWP-10-650-1100-M', '', ( #110 ) ) ;
#151 = COORDINATED_UNIVERSAL_TIME_OFFSET ( 8, 0, .AHEAD. ) ;
#152 = PLANE ( 'NONE',  #81 ) ;
#153 = DATE_AND_TIME ( #123, #137 ) ;
#154 = ORIENTED_EDGE ( 'NONE', *, *, #93, .T. ) ;
#155 = COORDINATED_UNIVERSAL_TIME_OFFSET ( 8, 0, .AHEAD. ) ;
#156 = ORIENTED_EDGE ( 'NONE', *, *, #318, .F. ) ;
#157 = EDGE_LOOP ( 'NONE', ( #260, #80, #159, #51 ) ) ;
#158 = AXIS2_PLACEMENT_3D ( 'NONE', #324, #199, #177 ) ;
#159 = ORIENTED_EDGE ( 'NONE', *, *, #43, .T. ) ;
#160 = DIRECTION ( 'NONE',  ( 0.000000000000000000, 0.000000000000000000, -1.000000000000000000 ) ) ;
#161 = DIRECTION ( 'NONE',  ( -1.000000000000000000, -0.000000000000000000, -0.000000000000000000 ) ) ;
#162 = AXIS2_PLACEMENT_3D ( 'NONE', #90, #41, #297 ) ;
#163 = CIRCLE ( 'NONE', #333, 12.69999999999999929 ) ;
#164 = FACE_OUTER_BOUND ( 'NONE', #126, .T. ) ;
#165 = LINE ( 'NONE', #243, #290 ) ;
#166 = CC_DESIGN_DATE_AND_TIME_ASSIGNMENT ( #153, #186, ( #11 ) ) ;
#167 = DIRECTION ( 'NONE',  ( -1.000000000000000000, -0.000000000000000000, -0.000000000000000000 ) ) ;
#168 = CIRCLE ( 'NONE', #38, 12.69999999999999929 ) ;
#169 = CARTESIAN_POINT ( 'NONE',  ( -3.000000000000000000, 5.000000000000000000, 0.000000000000000000 ) ) ;
#170 = ADVANCED_FACE ( 'NONE', ( #271 ), #245, .F. ) ;
#171 = PLANE ( 'NONE',  #174 ) ;
#172 = EDGE_LOOP ( 'NONE', ( #4, #303 ) ) ;
#173 = CARTESIAN_POINT ( 'NONE',  ( 3.000000000000000000, 0.000000000000000000, 12.69999999999999929 ) ) ;
#174 = AXIS2_PLACEMENT_3D ( 'NONE', #253, #16, #328 ) ;
#175 = PRODUCT_DEFINITION_FORMATION_WITH_SPECIFIED_SOURCE ( 'ANY', '', #150, .NOT_KNOWN. ) ;
#176 = FACE_OUTER_BOUND ( 'NONE', #29, .T. ) ;
#177 = DIRECTION ( 'NONE',  ( 0.000000000000000000, 0.000000000000000000, 1.000000000000000000 ) ) ;
#178 = EDGE_CURVE ( 'NONE', #135, #187, #274, .T. ) ;
#179 = DIRECTION ( 'NONE',  ( 1.000000000000000000, 0.000000000000000000, 0.000000000000000000 ) ) ;
#180 = CIRCLE ( 'NONE', #242, 5.000000000000000888 ) ;
#181 = EDGE_LOOP ( 'NONE', ( #206, #287, #106, #130 ) ) ;
#182 = FACE_OUTER_BOUND ( 'NONE', #172, .T. ) ;
#183 = APPROVAL_STATUS ( 'not_yet_approved' ) ;
#184 = APPLICATION_CONTEXT ( 'configuration controlled 3d designs of mechanical parts and assemblies' ) ;
#185 = ORIENTED_EDGE ( 'NONE', *, *, #93, .F. ) ;
#186 = DATE_TIME_ROLE ( 'classification_date' ) ;
#187 = VERTEX_POINT ( 'NONE', #136 ) ;
#188 = LINE ( 'NONE', #293, #97 ) ;
#189 = APPROVAL ( #263, 'UNSPECIFIED' ) ;
#190 = DIRECTION ( 'NONE',  ( -1.000000000000000000, -0.000000000000000000, -0.000000000000000000 ) ) ;
#191 = CARTESIAN_POINT ( 'NONE',  ( 3.000000000000000000, 0.000000000000000000, 0.000000000000000000 ) ) ;
#192 = CARTESIAN_POINT ( 'NONE',  ( -3.000000000000000000, 0.000000000000000000, 12.69999999999999929 ) ) ;
#193 = APPROVAL ( #28, 'UNSPECIFIED' ) ;
#194 = PLANE ( 'NONE',  #259 ) ;
#195 = DIRECTION ( 'NONE',  ( -1.000000000000000000, -0.000000000000000000, -0.000000000000000000 ) ) ;
#196 = DIRECTION ( 'NONE',  ( 0.000000000000000000, 0.000000000000000000, 1.000000000000000000 ) ) ;
#197 = AXIS2_PLACEMENT_3D ( 'NONE', #25, #13, #67 ) ;
#198 = LOCAL_TIME ( 10, 34, 25.00000000000000000, #151 ) ;
#199 = DIRECTION ( 'NONE',  ( -1.000000000000000000, -0.000000000000000000, -0.000000000000000000 ) ) ;
#200 = PERSON_AND_ORGANIZATION ( #9, #301 ) ;
#201 = VERTEX_POINT ( 'NONE', #321 ) ;
#202 = APPROVAL_ROLE ( '' ) ;
#203 = ORIENTED_EDGE ( 'NONE', *, *, #77, .F. ) ;
#204 = APPROVAL_ROLE ( '' ) ;
#205 = CIRCLE ( 'NONE', #319, 5.000000000000001776 ) ;
#206 = ORIENTED_EDGE ( 'NONE', *, *, #35, .F. ) ;
#207 = APPROVAL_PERSON_ORGANIZATION ( #105, #66, #202 ) ;
#208 = PERSON_AND_ORGANIZATION ( #9, #301 ) ;
#209 = ORIENTED_EDGE ( 'NONE', *, *, #121, .F. ) ;
#210 = CC_DESIGN_PERSON_AND_ORGANIZATION_ASSIGNMENT ( #1, #256, ( #175 ) ) ;
#211 = CALENDAR_DATE ( 2021, 5, 1 ) ;
#212 = VERTEX_POINT ( 'NONE', #12 ) ;
#213 = EDGE_CURVE ( 'NONE', #239, #212, #88, .T. ) ;
#214 = DIRECTION ( 'NONE',  ( -1.000000000000000000, -0.000000000000000000, -0.000000000000000000 ) ) ;
#215 = AXIS2_PLACEMENT_3D ( 'NONE', #141, #70, #276 ) ;
#216 = LOCAL_TIME ( 10, 34, 25.00000000000000000, #309 ) ;
#217 = CC_DESIGN_PERSON_AND_ORGANIZATION_ASSIGNMENT ( #282, #286, ( #11 ) ) ;
#218 = CARTESIAN_POINT ( 'NONE',  ( -3.000000000000000000, 0.000000000000000000, 0.000000000000000000 ) ) ;
#219 = FACE_BOUND ( 'NONE', #317, .T. ) ;
#220 = DIRECTION ( 'NONE',  ( 0.000000000000000000, 0.000000000000000000, 1.000000000000000000 ) ) ;
#221 = VECTOR ( 'NONE', #144, 1000.000000000000000 ) ;
#222 = CC_DESIGN_APPROVAL ( #66, ( #11 ) ) ;
#223 = CARTESIAN_POINT ( 'NONE',  ( 3.000000000000000000, 0.000000000000000000, 0.000000000000000000 ) ) ;
#224 = CARTESIAN_POINT ( 'NONE',  ( -1.614212418857619014, 0.000000000000000000, 0.000000000000000000 ) ) ;
#225 = VERTEX_POINT ( 'NONE', #99 ) ;
#226 = CIRCLE ( 'NONE', #269, 5.000000000000000000 ) ;
#227 = CC_DESIGN_APPROVAL ( #193, ( #175 ) ) ;
#228 = LINE ( 'NONE', #275, #221 ) ;
#229 = EDGE_CURVE ( 'NONE', #212, #239, #68, .T. ) ;
#230 = SHAPE_DEFINITION_REPRESENTATION ( #249, #254 ) ;
#231 = CALENDAR_DATE ( 2021, 5, 1 ) ;
#232 = ORIENTED_EDGE ( 'NONE', *, *, #42, .T. ) ;
#233 = CALENDAR_DATE ( 2021, 5, 1 ) ;
#234 = ORIENTED_EDGE ( 'NONE', *, *, #94, .F. ) ;
#235 = CIRCLE ( 'NONE', #215, 5.000000000000000888 ) ;
#236 = ADVANCED_FACE ( 'NONE', ( #22 ), #96, .F. ) ;
#237 = ORIENTED_EDGE ( 'NONE', *, *, #213, .F. ) ;
#238 = DATE_AND_TIME ( #312, #325 ) ;
#239 = VERTEX_POINT ( 'NONE', #148 ) ;
#240 = DIRECTION ( 'NONE',  ( -1.000000000000000000, -0.000000000000000000, -0.000000000000000000 ) ) ;
#241 = DIRECTION ( 'NONE',  ( 0.000000000000000000, 0.000000000000000000, 1.000000000000000000 ) ) ;
#242 = AXIS2_PLACEMENT_3D ( 'NONE', #15, #92, #160 ) ;
#243 = CARTESIAN_POINT ( 'NONE',  ( -1.614212418857619014, 0.000000000000000000, 12.69999999999999929 ) ) ;
#244 = UNCERTAINTY_MEASURE_WITH_UNIT (LENGTH_MEASURE( 1.000000000000000082E-05 ), #45, 'distance_accuracy_value', 'NONE');
#245 = CYLINDRICAL_SURFACE ( 'NONE', #252, 5.000000000000000888 ) ;
#246 = DIRECTION ( 'NONE',  ( -1.000000000000000000, -0.000000000000000000, -0.000000000000000000 ) ) ;
#247 = AXIS2_PLACEMENT_3D ( 'NONE', #118, #76, #73 ) ;
#248 = FACE_OUTER_BOUND ( 'NONE', #265, .T. ) ;
#249 = PRODUCT_DEFINITION_SHAPE ( 'NONE', 'NONE',  #327 ) ;
#250 = LINE ( 'NONE', #21, #75 ) ;
#251 = ADVANCED_FACE ( 'NONE', ( #176 ), #307, .T. ) ;
#252 = AXIS2_PLACEMENT_3D ( 'NONE', #89, #60, #220 ) ;
#253 = CARTESIAN_POINT ( 'NONE',  ( 0.5000000000000002220, 5.000000000000000000, 0.000000000000000000 ) ) ;
#254 = ADVANCED_BREP_SHAPE_REPRESENTATION ( 'QM-CAHWP-10-650-1100-M', ( #331, #132 ), #113 ) ;
#255 = DIRECTION ( 'NONE',  ( 0.000000000000000000, 0.000000000000000000, 1.000000000000000000 ) ) ;
#256 = PERSON_AND_ORGANIZATION_ROLE ( 'creator' ) ;
#257 = ADVANCED_FACE ( 'NONE', ( #248 ), #305, .F. ) ;
#258 = ADVANCED_FACE ( 'NONE', ( #48 ), #46, .T. ) ;
#259 = AXIS2_PLACEMENT_3D ( 'NONE', #169, #44, #332 ) ;
#260 = ORIENTED_EDGE ( 'NONE', *, *, #280, .T. ) ;
#261 = EDGE_LOOP ( 'NONE', ( #209, #234 ) ) ;
#262 = CC_DESIGN_PERSON_AND_ORGANIZATION_ASSIGNMENT ( #208, #23, ( #327 ) ) ;
#263 = APPROVAL_STATUS ( 'not_yet_approved' ) ;
#264 = VERTEX_POINT ( 'NONE', #173 ) ;
#265 = EDGE_LOOP ( 'NONE', ( #71, #56, #107, #78 ) ) ;
#266 = CC_DESIGN_DATE_AND_TIME_ASSIGNMENT ( #24, #103, ( #327 ) ) ;
#267 = CARTESIAN_POINT ( 'NONE',  ( -1.614212418857619014, 6.123233995736767268E-16, -5.000000000000000888 ) ) ;
#268 = CARTESIAN_POINT ( 'NONE',  ( -3.000000000000000000, 0.000000000000000000, 0.000000000000000000 ) ) ;
#269 = AXIS2_PLACEMENT_3D ( 'NONE', #95, #190, #62 ) ;
#270 = CC_DESIGN_APPROVAL ( #189, ( #327 ) ) ;
#271 = FACE_OUTER_BOUND ( 'NONE', #157, .T. ) ;
#272 = FACE_OUTER_BOUND ( 'NONE', #261, .T. ) ;
#273 = CYLINDRICAL_SURFACE ( 'NONE', #162, 5.000000000000000888 ) ;
#274 = CIRCLE ( 'NONE', #278, 5.000000000000001776 ) ;
#275 = CARTESIAN_POINT ( 'NONE',  ( -1.614212418857619014, 0.000000000000000000, 5.000000000000000888 ) ) ;
#276 = DIRECTION ( 'NONE',  ( 0.000000000000000000, 0.000000000000000000, -1.000000000000000000 ) ) ;
#277 = DIRECTION ( 'NONE',  ( 0.000000000000000000, 0.000000000000000000, 1.000000000000000000 ) ) ;
#278 = AXIS2_PLACEMENT_3D ( 'NONE', #191, #37, #40 ) ;
#279 = CARTESIAN_POINT ( 'NONE',  ( -3.000000000000000000, 6.123233995736766282E-16, -5.000000000000000000 ) ) ;
#280 = EDGE_CURVE ( 'NONE', #315, #225, #235, .T. ) ;
#281 = DIRECTION ( 'NONE',  ( 0.000000000000000000, 0.000000000000000000, 1.000000000000000000 ) ) ;
#282 = PERSON_AND_ORGANIZATION ( #9, #301 ) ;
#283 = DIRECTION ( 'NONE',  ( 0.000000000000000000, 0.000000000000000000, -1.000000000000000000 ) ) ;
#284 = SECURITY_CLASSIFICATION_LEVEL ( 'unclassified' ) ;
#285 = EDGE_LOOP ( 'NONE', ( #308, #134 ) ) ;
#286 = PERSON_AND_ORGANIZATION_ROLE ( 'classification_officer' ) ;
#287 = ORIENTED_EDGE ( 'NONE', *, *, #94, .T. ) ;
#288 = ADVANCED_FACE ( 'NONE', ( #146 ), #171, .F. ) ;
#289 = EDGE_CURVE ( 'NONE', #315, #329, #228, .T. ) ;
#290 = VECTOR ( 'NONE', #64, 1000.000000000000000 ) ;
#291 = APPROVAL_PERSON_ORGANIZATION ( #316, #193, #54 ) ;
#292 = VERTEX_POINT ( 'NONE', #279 ) ;
#293 = CARTESIAN_POINT ( 'NONE',  ( -1.614212418857619014, 6.123233995736767268E-16, -5.000000000000000888 ) ) ;
#294 = LINE ( 'NONE', #114, #52 ) ;
#295 = CLOSED_SHELL ( 'NONE', ( #251, #170, #149, #288, #257, #236, #306, #258, #147, #8 ) ) ;
#296 = DIRECTION ( 'NONE',  ( -0.000000000000000000, 0.000000000000000000, 1.000000000000000000 ) ) ;
#297 = DIRECTION ( 'NONE',  ( 0.000000000000000000, 0.000000000000000000, 1.000000000000000000 ) ) ;
#298 = CARTESIAN_POINT ( 'NONE',  ( 3.000000000000000000, 0.000000000000000000, 5.000000000000001776 ) ) ;
#299 = DIRECTION ( 'NONE',  ( -1.000000000000000000, -0.000000000000000000, -0.000000000000000000 ) ) ;
#300 = CIRCLE ( 'NONE', #124, 5.000000000000000000 ) ;
#301 = ORGANIZATION ( 'UNSPECIFIED', 'UNSPECIFIED', '' ) ;
#302 = CARTESIAN_POINT ( 'NONE',  ( 0.5000000000000004441, 0.000000000000000000, 0.000000000000000000 ) ) ;
#303 = ORIENTED_EDGE ( 'NONE', *, *, #57, .F. ) ;
#304 = CARTESIAN_POINT ( 'NONE',  ( -1.614212418857619014, 0.000000000000000000, 0.000000000000000000 ) ) ;
#305 = CYLINDRICAL_SURFACE ( 'NONE', #247, 5.000000000000000888 ) ;
#306 = ADVANCED_FACE ( 'NONE', ( #69, #100 ), #194, .F. ) ;
#307 = CYLINDRICAL_SURFACE ( 'NONE', #47, 12.69999999999999929 ) ;
#308 = ORIENTED_EDGE ( 'NONE', *, *, #42, .F. ) ;
#309 = COORDINATED_UNIVERSAL_TIME_OFFSET ( 8, 0, .AHEAD. ) ;
#310 = ORIENTED_EDGE ( 'NONE', *, *, #53, .T. ) ;
#311 = CIRCLE ( 'NONE', #30, 12.69999999999999929 ) ;
#312 = CALENDAR_DATE ( 2021, 5, 1 ) ;
#313 = ORIENTED_EDGE ( 'NONE', *, *, #229, .F. ) ;
#314 = DIRECTION ( 'NONE',  ( 0.000000000000000000, 0.000000000000000000, 1.000000000000000000 ) ) ;
#315 = VERTEX_POINT ( 'NONE', #143 ) ;
#316 = PERSON_AND_ORGANIZATION ( #9, #301 ) ;
#317 = EDGE_LOOP ( 'NONE', ( #2, #154 ) ) ;
#318 = EDGE_CURVE ( 'NONE', #135, #212, #250, .T. ) ;
#319 = AXIS2_PLACEMENT_3D ( 'NONE', #117, #115, #10 ) ;
#320 = DIRECTION ( 'NONE',  ( 0.000000000000000000, 0.000000000000000000, 1.000000000000000000 ) ) ;
#321 = CARTESIAN_POINT ( 'NONE',  ( 3.000000000000000000, 1.555301434917138433E-15, -12.69999999999999929 ) ) ;
#322 = DIRECTION ( 'NONE',  ( -1.000000000000000000, 0.000000000000000000, -0.000000000000000000 ) ) ;
#323 = VECTOR ( 'NONE', #167, 1000.000000000000000 ) ;
#324 = CARTESIAN_POINT ( 'NONE',  ( 0.5000000000000004441, 0.000000000000000000, 0.000000000000000000 ) ) ;
#325 = LOCAL_TIME ( 10, 34, 25.00000000000000000, #334 ) ;
#326 = DIRECTION ( 'NONE',  ( 0.000000000000000000, 0.000000000000000000, 1.000000000000000000 ) ) ;
#327 = PRODUCT_DEFINITION ( 'UNKNOWN', '', #175, #61 ) ;
#328 = DIRECTION ( 'NONE',  ( -0.000000000000000000, 0.000000000000000000, 1.000000000000000000 ) ) ;
#329 = VERTEX_POINT ( 'NONE', #119 ) ;
#330 = CARTESIAN_POINT ( 'NONE',  ( -1.614212418857619014, 0.000000000000000000, 0.000000000000000000 ) ) ;
#331 = MANIFOLD_SOLID_BREP ( 'Ðý×', #295 ) ;
#332 = DIRECTION ( 'NONE',  ( 0.000000000000000000, 0.000000000000000000, -1.000000000000000000 ) ) ;
#333 = AXIS2_PLACEMENT_3D ( 'NONE', #268, #240, #320 ) ;
#334 = COORDINATED_UNIVERSAL_TIME_OFFSET ( 8, 0, .AHEAD. ) ;
#335 = EDGE_LOOP ( 'NONE', ( #58, #310 ) ) ;
ENDSEC;
END-ISO-10303-21;
